Letras / letra C / Chiclete com Banana / Abc Do Prazer

Abc Do Prazer
Chiclete com Banana

  • Autor: (Jonny/Val Macambira/Lula Sibemol)
  • Estilo: Rap / Hip-Hop
Alinhamento:
Corrigir letra



Eu levo alegria a você

você sempre a trouxe pra mim

(

eu sei, vou fazer com você

o ABC do prazer,

do princípio ao fim

<TAB>(solo)

e|-----------------------------|-----------------------------|-

B|-----------5-6-----------5-6-|--6/8--6-5------6/8--6-5-----|-

G|-----4-7-7---------4-7-7-----|-----------7-------------7---|-

D|-5-5-----------5-5-----------|-----------------------------|-

A|-----------------------------|-----------------------------|-

E|-----------------------------|-----------------------------|-

-|-----------------------------|-

-|--------------6--------------|-

-|----------5-7---8-7-5--------|-

-|----5-7-8-------------8-7-5--|-

-|-----------------------------|-

-|-----------------------------|-</TAB>

(notação)

/ => slide



Enquanto a gente

segue varando a noite,

sendo como se fosse

passageiro do além

vivendo esse eterno romance,

como único lance,

desfrutando prazer.



E onde eu for,

saudades eu vou ter.

Desta linda noite

não vou esquecer.

_______________________________________________________

Contribuição: Adolfo Sávio Bezerra(adsbg@bol.com.br)



Eu levo alegria a você

você sempre a trouxe pra mim

(

eu sei, vou fazer com você

o ABC do prazer,

do princípio ao fim

(solo)

e|-----------------------------|-----------------------------|-

B|-----------5-6-----------5-6-|--6/8--6-5------6/8--6-5-----|-

G|-----4-7-7---------4-7-7-----|-----------7-------------7---|-

D|-5-5-----------5-5-----------|-----------------------------|-

A|-----------------------------|-----------------------------|-

E|-----------------------------|-----------------------------|-

-|-----------------------------|-

-|--------------6--------------|-

-|----------5-7---8-7-5--------|-

-|----5-7-8-------------8-7-5--|-

-|-----------------------------|-



(notação)

/ => slide



Enquanto a gente

segue varando a noite,

sendo como se fosse

passageiro do além

vivendo esse eterno romance,

como único lance,

desfrutando prazer.



E onde eu for,

saudades eu vou ter.

Desta linda noite

não vou esquecer.

_______________________________________________________

Contribuição: Adolfo Sávio Bezerra(adsbg@bol.com.br)




Alinhamento:
Corrigir letra

Conte para seus amigos as músicas que você curte

FECHAR

Playlist atualizada com sucesso!

Os programas existentes nesta playlist não podem ser salvos.

Apagar Todas
Comunicar erro

Sua senha é secreta. Nenhum funcionário do UOL está autorizado a solicitá-la.

© 1996-2013 UOL - O melhor conteúdo. Todos os direitos reservados. Hospedagem: UOL Host